Main Menu



Back on the Chain Gang (1)
from Learning To Crawl
Transcription:
Pete White

The changes are a little off, but they work.

Main Riff:

G|--------2-----------------------------|
D|--0--4-----------2--------------------|
A|-----------0--4--------------2-----2--|
E|--------------------0--2--3-----3-----|

(Play 5 times)


Change:

"...back in the fight..."

G|--------2-----------------------------------|
D|--0--4-----------2--------------4--2--------|
A|-----------0--4--------------2--------4--2--|
E|--------------------0--2--3-----------------|


Then:

"...back on the train..."

G|--------------------------2-----|
D|--2--4--2--0--------2--4-----4--|
A|--------------2--0--------------|
E|--------------------------------|

(Play 3 times)


Then:

G|-----2--4--2--------------|
D|--0--------------2--4--2--|
A|--------------0-----------|
E|--------------------------|

(Play 2 times)


These are the basic patterns used throughout the rest of the song,
with some slight variation (slides, etc...)

If you listen to the album you'll see what order to put the different
parts for the rest of it.

The only other major new bit is right at the end of the solo
(2:02 on my CD player)


It goes like this:

G|--------------|
D|--0--0--0--0--|
A|--------------|
E|--------------|

And then it repeats this (feel free to get jiggy with it)
several times:


G|-----5h7--2--|
D|--0----------|
A|-------------|
E|-------------|


After it gets finished with that, it goes into a variation
of the main riff:


G|-----1--4-----------------------------|
D|--2-----------1--4--------2-----1--4--|
A|-----------2--------0--4-----2--------|
E|--------------------------------------|


And then back to normal.